El tiempo es olvido- mitocondrias- José manuel aguilera

Ver el tema anterior Ver el tema siguiente Ir abajo

El tiempo es olvido- mitocondrias- José manuel aguilera

Mensaje  jim morrison el Mar Nov 29, 2011 8:48 pm

El tiempo es olvido

INTRO Y VERSOS:RIFF 1

riff 1

E|-2---3---6---5------|
A|--------------------|
D|--0-0-0-0-0-0-0-----|
G|---2---3---7---5----|

EL OJO IMPACIBLE DEL SOL QUEMA NUESTRAS ALMAS
CONDENADOS A NO RECORDAR EN ESTE LLANO EN LLAMAS

RIFF 1

HABITUADOS A LANGUIDECER BAJO EL SOL ARDIENTE
OLVIDAMOS EL VERSO MEJOR SU RITMO Y SU SONIDO

EN EL SIGUIENTE VERSO:RIFF 2

RIRR 2

E|------------------|-2---3---6---5---5----|
A|-3---3---1---1----|----------------------|
D|------------------|--0-0-0-0-0-0-0-0-0---|
G|--0-0-0-0-0-0-0-0-|---2---3---7---5---5--|
B|---4---4---3---3--|----------------------|
e|------------------|----------------------|

Y OLVIDAMOS QUE HAY QUIENES NOS ROBAN EL PORVENIR
BAJ EL OJO IMPACIBLE DEL SOL EL TIEMPO ES OLVIDO

"CORO"
A# Dm Gm C
QUE QUEDARA DE MI? SI HASTA EL SOL SE DESINTEGRA
A# Dm Gm C
TAL VEZ MI VOZ SERA EL ECO DE UNA ESTRELLA...

EN EL SIGUIENTE VERSO:RIFF 1

AGUARDAMOS DEBAJO DEL SOL QUE QUEMA NUESTROS HUESOS
EN ESPERA DE UN TIEMPO MEJOR TAL VEZ DESPUES DE MUERTO

SIGUIENTE VERSO:RIFF 2

MIENTRAS TANTO BORRAMOS LAS HUELLAS DEL PORVENIR
BAJO EL OJO IMPACIBLE DEL SOL EL TIEMPO ES OLVIDO

"CORO"

SOLO DE GUITARRA:

E|-6-8-9-------------------------------------------|
A|-------6-8---------------------------------------|
D|-----------6-6/8-8-8-8-6-8---8-8-6-8---8-8-6-8---|
G|---------------------------6---------6---------6-|
B|-------------------------------------------------|
e|-------------------------------------------------|

E|-------------------------------------------------|
A|-------------------------------------------------|
D|-------------------------------------------------|
G|-8/10-10-10-10-10---10---------------------------|
B|------------------9----9/11-11-11-11-11-11-------|
e|-------------------------------------------------|

E|-----------------------------------------------------------|
A|-----------------------------------------------------------|
D|-----------------------------------------------------------|
G|-----------------------------------------------------------|
B|--------------------------11-11-9-11---11-9-11-------------|
e|-8-9-9-9/11-11-11-9-11-13------------9---------9-9-9-9-9-9-|

"CORO" X2

RIFF 1

FIN
avatar
jim morrison

Mensajes : 110
Fecha de inscripción : 13/11/2011

Ver perfil de usuario

Volver arriba Ir abajo

Ver el tema anterior Ver el tema siguiente Volver arriba

- Temas similares

 
Permisos de este foro:
No puedes responder a temas en este foro.